ISO-10303-21;
HEADER;
FILE_DESCRIPTION (( 'STEP AP203' ),
    '1' );
FILE_NAME ('BK7-RNDF-25.4-1.STEP',
    '2020-12-22T01:28:11',
    ( '' ),
    ( '' ),
    'SwSTEP 2.0',
    'SolidWorks 2020',
    '' );
FILE_SCHEMA (( 'CONFIG_CONTROL_DESIGN' ));
ENDSEC;

DATA;
#1 = DIRECTION ( 'NONE',  ( 0.000000000000000000, 0.000000000000000000, -1.000000000000000000 ) ) ;
#2 = DIRECTION ( 'NONE',  ( 0.000000000000000000, 0.000000000000000000, 1.000000000000000000 ) ) ;
#3 = COORDINATED_UNIVERSAL_TIME_OFFSET ( 8, 0, .AHEAD. ) ;
#4 = APPROVAL_PERSON_ORGANIZATION ( #128, #98, #21 ) ;
#5 = APPROVAL_ROLE ( '' ) ;
#6 = PERSON_AND_ORGANIZATION ( #138, #78 ) ;
#7 = MECHANICAL_CONTEXT ( 'NONE', #56, 'mechanical' ) ;
#8 = LOCAL_TIME ( 9, 28, 11.00000000000000000, #3 ) ;
#9 = EDGE_LOOP ( 'NONE', ( #156, #82 ) ) ;
#10 = VERTEX_POINT ( 'NONE', #117 ) ;
#11 = DIRECTION ( 'NONE',  ( 0.000000000000000000, 0.000000000000000000, 1.000000000000000000 ) ) ;
#12 = DIRECTION ( 'NONE',  ( -1.000000000000000000, -0.000000000000000000, -0.000000000000000000 ) ) ;
#13 = CARTESIAN_POINT ( 'NONE',  ( -1.187907395172932594E-15, 0.000000000000000000, 0.000000000000000000 ) ) ;
#14 = PRODUCT_DEFINITION_SHAPE ( 'NONE', 'NONE',  #171 ) ;
#15 = COORDINATED_UNIVERSAL_TIME_OFFSET ( 8, 0, .AHEAD. ) ;
#16 = LOCAL_TIME ( 9, 28, 11.00000000000000000, #110 ) ;
#17 = PERSON_AND_ORGANIZATION_ROLE ( 'creator' ) ;
#18 = SHAPE_DEFINITION_REPRESENTATION ( #14, #27 ) ;
#19 = ORIENTED_EDGE ( 'NONE', *, *, #68, .F. ) ;
#20 = AXIS2_PLACEMENT_3D ( 'NONE', #87, #102, #157 ) ;
#21 = APPROVAL_ROLE ( '' ) ;
#22 = CC_DESIGN_SECURITY_CLASSIFICATION ( #166, ( #73 ) ) ;
#23 = CYLINDRICAL_SURFACE ( 'NONE', #93, 12.69999999999999929 ) ;
#24 = APPROVAL ( #29, 'UNSPECIFIED' ) ;
#25 = CARTESIAN_POINT ( 'NONE',  ( 1.999999999999998224, 0.000000000000000000, 12.69999999999999929 ) ) ;
#26 = FACE_OUTER_BOUND ( 'NONE', #9, .T. ) ;
#27 = ADVANCED_BREP_SHAPE_REPRESENTATION ( 'BK7-RNDF-25.4-1', ( #163, #61 ), #55 ) ;
#28 = ADVANCED_FACE ( 'NONE', ( #26 ), #35, .F. ) ;
#29 = APPROVAL_STATUS ( 'not_yet_approved' ) ;
#30 = APPROVAL_ROLE ( '' ) ;
#31 = CIRCLE ( 'NONE', #108, 12.69999999999999929 ) ;
#32 = APPROVAL_DATE_TIME ( #152, #24 ) ;
#33 = CIRCLE ( 'NONE', #54, 12.69999999999999929 ) ;
#34 = LOCAL_TIME ( 9, 28, 11.00000000000000000, #15 ) ;
#35 = PLANE ( 'NONE',  #81 ) ;
#36 = PLANE ( 'NONE',  #20 ) ;
#37 = CC_DESIGN_DATE_AND_TIME_ASSIGNMENT ( #80, #43, ( #171 ) ) ;
#38 = CIRCLE ( 'NONE', #122, 12.69999999999999929 ) ;
#39 = DIRECTION ( 'NONE',  ( 0.000000000000000000, 0.000000000000000000, 1.000000000000000000 ) ) ;
#40 = ADVANCED_FACE ( 'NONE', ( #147 ), #106, .T. ) ;
#41 = PERSON_AND_ORGANIZATION_ROLE ( 'creator' ) ;
#42 = APPLICATION_CONTEXT ( 'configuration controlled 3d designs of mechanical parts and assemblies' ) ;
#43 = DATE_TIME_ROLE ( 'creation_date' ) ;
#44 = APPLICATION_PROTOCOL_DEFINITION ( 'international standard', 'config_control_design', 1994, #42 ) ;
#45 = DATE_AND_TIME ( #127, #118 ) ;
#46 = EDGE_CURVE ( 'NONE', #113, #59, #104, .T. ) ;
#47 = VERTEX_POINT ( 'NONE', #115 ) ;
#48 = DATE_TIME_ROLE ( 'classification_date' ) ;
#49 = FACE_OUTER_BOUND ( 'NONE', #144, .T. ) ;
#50 = FACE_OUTER_BOUND ( 'NONE', #131, .T. ) ;
#51 = AXIS2_PLACEMENT_3D ( 'NONE', #52, #63, #11 ) ;
#52 = CARTESIAN_POINT ( 'NONE',  ( 1.999999999999998224, 0.000000000000000000, 0.000000000000000000 ) ) ;
#53 =( LENGTH_UNIT ( ) NAMED_UNIT ( * ) SI_UNIT ( .MILLI., .METRE. ) );
#54 = AXIS2_PLACEMENT_3D ( 'NONE', #75, #85, #145 ) ;
#55 =( GEOMETRIC_REPRESENTATION_CONTEXT ( 3 ) GLOBAL_UNCERTAINTY_ASSIGNED_CONTEXT ( ( #136 ) ) GLOBAL_UNIT_ASSIGNED_CONTEXT ( ( #53, #77, #134 ) ) REPRESENTATION_CONTEXT ( 'NONE', 'WORKASPACE' ) );
#56 = APPLICATION_CONTEXT ( 'configuration controlled 3d designs of mechanical parts and assemblies' ) ;
#57 = PERSON_AND_ORGANIZATION ( #138, #78 ) ;
#58 = CLOSED_SHELL ( 'NONE', ( #83, #40, #126, #28 ) ) ;
#59 = VERTEX_POINT ( 'NONE', #25 ) ;
#60 = ORIENTED_EDGE ( 'NONE', *, *, #46, .F. ) ;
#61 = AXIS2_PLACEMENT_3D ( 'NONE', #162, #39, #88 ) ;
#62 = CC_DESIGN_DATE_AND_TIME_ASSIGNMENT ( #140, #48, ( #166 ) ) ;
#63 = DIRECTION ( 'NONE',  ( -1.000000000000000000, -0.000000000000000000, -0.000000000000000000 ) ) ;
#64 = DESIGN_CONTEXT ( 'detailed design', #42, 'design' ) ;
#65 = CC_DESIGN_PERSON_AND_ORGANIZATION_ASSIGNMENT ( #57, #123, ( #175 ) ) ;
#66 = PERSON_AND_ORGANIZATION_ROLE ( 'design_supplier' ) ;
#67 = PERSON_AND_ORGANIZATION ( #138, #78 ) ;
#68 = EDGE_CURVE ( 'NONE', #113, #47, #146, .T. ) ;
#69 = ORIENTED_EDGE ( 'NONE', *, *, #76, .T. ) ;
#70 = COORDINATED_UNIVERSAL_TIME_OFFSET ( 8, 0, .AHEAD. ) ;
#71 = CC_DESIGN_PERSON_AND_ORGANIZATION_ASSIGNMENT ( #67, #66, ( #73 ) ) ;
#72 = CARTESIAN_POINT ( 'NONE',  ( 0.000000000000000000, 0.000000000000000000, 0.000000000000000000 ) ) ;
#73 = PRODUCT_DEFINITION_FORMATION_WITH_SPECIFIED_SOURCE ( 'ANY', '', #175, .NOT_KNOWN. ) ;
#74 = DIRECTION ( 'NONE',  ( 0.000000000000000000, 0.000000000000000000, 1.000000000000000000 ) ) ;
#75 = CARTESIAN_POINT ( 'NONE',  ( -1.187907395172932594E-15, 0.000000000000000000, 0.000000000000000000 ) ) ;
#76 = EDGE_CURVE ( 'NONE', #59, #10, #120, .T. ) ;
#77 =( NAMED_UNIT ( * ) PLANE_ANGLE_UNIT ( ) SI_UNIT ( $, .RADIAN. ) );
#78 = ORGANIZATION ( 'UNSPECIFIED', 'UNSPECIFIED', '' ) ;
#79 = APPLICATION_PROTOCOL_DEFINITION ( 'international standard', 'config_control_design', 1994, #56 ) ;
#80 = DATE_AND_TIME ( #165, #8 ) ;
#81 = AXIS2_PLACEMENT_3D ( 'NONE', #119, #84, #1 ) ;
#82 = ORIENTED_EDGE ( 'NONE', *, *, #89, .T. ) ;
#83 = ADVANCED_FACE ( 'NONE', ( #50 ), #23, .T. ) ;
#84 = DIRECTION ( 'NONE',  ( 1.000000000000000000, 0.000000000000000000, 0.000000000000000000 ) ) ;
#85 = DIRECTION ( 'NONE',  ( -1.000000000000000000, -0.000000000000000000, -0.000000000000000000 ) ) ;
#86 = CARTESIAN_POINT ( 'NONE',  ( 0.000000000000000000, 1.555301434917138433E-15, -12.69999999999999929 ) ) ;
#87 = CARTESIAN_POINT ( 'NONE',  ( 1.999999999999999112, 12.69999999999999929, 0.000000000000000000 ) ) ;
#88 = DIRECTION ( 'NONE',  ( 1.000000000000000000, 0.000000000000000000, 0.000000000000000000 ) ) ;
#89 = EDGE_CURVE ( 'NONE', #47, #10, #38, .T. ) ;
#90 = CALENDAR_DATE ( 2020, 22, 12 ) ;
#91 = EDGE_CURVE ( 'NONE', #59, #113, #31, .T. ) ;
#92 = CALENDAR_DATE ( 2020, 22, 12 ) ;
#93 = AXIS2_PLACEMENT_3D ( 'NONE', #72, #103, #74 ) ;
#94 = CC_DESIGN_APPROVAL ( #24, ( #73 ) ) ;
#95 = PERSON_AND_ORGANIZATION_ROLE ( 'classification_officer' ) ;
#96 = PERSON_AND_ORGANIZATION ( #138, #78 ) ;
#97 = CC_DESIGN_APPROVAL ( #98, ( #166 ) ) ;
#98 = APPROVAL ( #154, 'UNSPECIFIED' ) ;
#99 = ORIENTED_EDGE ( 'NONE', *, *, #46, .T. ) ;
#100 = CC_DESIGN_APPROVAL ( #107, ( #171 ) ) ;
#101 = ORIENTED_EDGE ( 'NONE', *, *, #91, .F. ) ;
#102 = DIRECTION ( 'NONE',  ( -1.000000000000000000, 0.000000000000000000, -0.000000000000000000 ) ) ;
#103 = DIRECTION ( 'NONE',  ( -1.000000000000000000, -0.000000000000000000, -0.000000000000000000 ) ) ;
#104 = CIRCLE ( 'NONE', #51, 12.69999999999999929 ) ;
#105 = CARTESIAN_POINT ( 'NONE',  ( 1.999999999999998224, 0.000000000000000000, 0.000000000000000000 ) ) ;
#106 = CYLINDRICAL_SURFACE ( 'NONE', #158, 12.69999999999999929 ) ;
#107 = APPROVAL ( #139, 'UNSPECIFIED' ) ;
#108 = AXIS2_PLACEMENT_3D ( 'NONE', #105, #174, #132 ) ;
#109 = EDGE_CURVE ( 'NONE', #10, #47, #33, .T. ) ;
#110 = COORDINATED_UNIVERSAL_TIME_OFFSET ( 8, 0, .AHEAD. ) ;
#111 = APPROVAL_PERSON_ORGANIZATION ( #168, #107, #5 ) ;
#112 = LOCAL_TIME ( 9, 28, 11.00000000000000000, #121 ) ;
#113 = VERTEX_POINT ( 'NONE', #172 ) ;
#114 = APPROVAL_DATE_TIME ( #45, #98 ) ;
#115 = CARTESIAN_POINT ( 'NONE',  ( -1.187907395172932594E-15, 1.555301434917138433E-15, -12.69999999999999929 ) ) ;
#116 = DIRECTION ( 'NONE',  ( -1.000000000000000000, -0.000000000000000000, -0.000000000000000000 ) ) ;
#117 = CARTESIAN_POINT ( 'NONE',  ( -1.187907395172932594E-15, 0.000000000000000000, 12.69999999999999929 ) ) ;
#118 = LOCAL_TIME ( 9, 28, 11.00000000000000000, #70 ) ;
#119 = CARTESIAN_POINT ( 'NONE',  ( -5.939536975864662969E-16, 12.69999999999999929, 0.000000000000000000 ) ) ;
#120 = LINE ( 'NONE', #160, #161 ) ;
#121 = COORDINATED_UNIVERSAL_TIME_OFFSET ( 8, 0, .AHEAD. ) ;
#122 = AXIS2_PLACEMENT_3D ( 'NONE', #13, #159, #2 ) ;
#123 = PERSON_AND_ORGANIZATION_ROLE ( 'design_owner' ) ;
#124 = SECURITY_CLASSIFICATION_LEVEL ( 'unclassified' ) ;
#125 = APPROVAL_DATE_TIME ( #164, #107 ) ;
#126 = ADVANCED_FACE ( 'NONE', ( #49 ), #36, .F. ) ;
#127 = CALENDAR_DATE ( 2020, 22, 12 ) ;
#128 = PERSON_AND_ORGANIZATION ( #138, #78 ) ;
#129 = ORIENTED_EDGE ( 'NONE', *, *, #68, .T. ) ;
#130 = ORIENTED_EDGE ( 'NONE', *, *, #89, .F. ) ;
#131 = EDGE_LOOP ( 'NONE', ( #155, #129, #143, #169 ) ) ;
#132 = DIRECTION ( 'NONE',  ( 0.000000000000000000, 0.000000000000000000, 1.000000000000000000 ) ) ;
#133 = CC_DESIGN_PERSON_AND_ORGANIZATION_ASSIGNMENT ( #6, #95, ( #166 ) ) ;
#134 =( NAMED_UNIT ( * ) SI_UNIT ( $, .STERADIAN. ) SOLID_ANGLE_UNIT ( ) );
#135 = DIRECTION ( 'NONE',  ( 0.000000000000000000, 0.000000000000000000, 1.000000000000000000 ) ) ;
#136 = UNCERTAINTY_MEASURE_WITH_UNIT (LENGTH_MEASURE( 1.000000000000000082E-05 ), #53, 'distance_accuracy_value', 'NONE');
#137 = PERSON_AND_ORGANIZATION ( #138, #78 ) ;
#138 = PERSON ( 'UNSPECIFIED', 'UNSPECIFIED', 'UNSPECIFIED', ('UNSPECIFIED'), ('UNSPECIFIED'), ('UNSPECIFIED') ) ;
#139 = APPROVAL_STATUS ( 'not_yet_approved' ) ;
#140 = DATE_AND_TIME ( #153, #16 ) ;
#141 = EDGE_LOOP ( 'NONE', ( #19, #99, #69, #130 ) ) ;
#142 = CC_DESIGN_PERSON_AND_ORGANIZATION_ASSIGNMENT ( #151, #41, ( #171 ) ) ;
#143 = ORIENTED_EDGE ( 'NONE', *, *, #109, .F. ) ;
#144 = EDGE_LOOP ( 'NONE', ( #101, #60 ) ) ;
#145 = DIRECTION ( 'NONE',  ( 0.000000000000000000, 0.000000000000000000, 1.000000000000000000 ) ) ;
#146 = LINE ( 'NONE', #86, #170 ) ;
#147 = FACE_OUTER_BOUND ( 'NONE', #141, .T. ) ;
#148 = CC_DESIGN_PERSON_AND_ORGANIZATION_ASSIGNMENT ( #137, #17, ( #73 ) ) ;
#149 = APPROVAL_PERSON_ORGANIZATION ( #96, #24, #30 ) ;
#150 = DIRECTION ( 'NONE',  ( -1.000000000000000000, -0.000000000000000000, -0.000000000000000000 ) ) ;
#151 = PERSON_AND_ORGANIZATION ( #138, #78 ) ;
#152 = DATE_AND_TIME ( #92, #34 ) ;
#153 = CALENDAR_DATE ( 2020, 22, 12 ) ;
#154 = APPROVAL_STATUS ( 'not_yet_approved' ) ;
#155 = ORIENTED_EDGE ( 'NONE', *, *, #91, .T. ) ;
#156 = ORIENTED_EDGE ( 'NONE', *, *, #109, .T. ) ;
#157 = DIRECTION ( 'NONE',  ( -0.000000000000000000, 0.000000000000000000, 1.000000000000000000 ) ) ;
#158 = AXIS2_PLACEMENT_3D ( 'NONE', #173, #150, #135 ) ;
#159 = DIRECTION ( 'NONE',  ( -1.000000000000000000, -0.000000000000000000, -0.000000000000000000 ) ) ;
#160 = CARTESIAN_POINT ( 'NONE',  ( 0.000000000000000000, 0.000000000000000000, 12.69999999999999929 ) ) ;
#161 = VECTOR ( 'NONE', #116, 1000.000000000000000 ) ;
#162 = CARTESIAN_POINT ( 'NONE',  ( 0.000000000000000000, 0.000000000000000000, 0.000000000000000000 ) ) ;
#163 = MANIFOLD_SOLID_BREP ( 'Ðý×', #58 ) ;
#164 = DATE_AND_TIME ( #90, #112 ) ;
#165 = CALENDAR_DATE ( 2020, 22, 12 ) ;
#166 = SECURITY_CLASSIFICATION ( '', '', #124 ) ;
#167 = PRODUCT_RELATED_PRODUCT_CATEGORY ( 'detail', '', ( #175 ) ) ;
#168 = PERSON_AND_ORGANIZATION ( #138, #78 ) ;
#169 = ORIENTED_EDGE ( 'NONE', *, *, #76, .F. ) ;
#170 = VECTOR ( 'NONE', #12, 1000.000000000000000 ) ;
#171 = PRODUCT_DEFINITION ( 'UNKNOWN', '', #73, #64 ) ;
#172 = CARTESIAN_POINT ( 'NONE',  ( 1.999999999999998224, 1.555301434917138433E-15, -12.69999999999999929 ) ) ;
#173 = CARTESIAN_POINT ( 'NONE',  ( 0.000000000000000000, 0.000000000000000000, 0.000000000000000000 ) ) ;
#174 = DIRECTION ( 'NONE',  ( -1.000000000000000000, -0.000000000000000000, -0.000000000000000000 ) ) ;
#175 = PRODUCT ( 'BK7-RNDF-25.4-1', 'BK7-RNDF-25.4-1', '', ( #7 ) ) ;
ENDSEC;
END-ISO-10303-21;
